ISO-10303-21;
HEADER;
FILE_DESCRIPTION (( 'STEP AP203' ),
    '1' );
FILE_NAME ('Q-QZWP-R4-10-405-M.STEP',
    '2020-12-23T01:21:54',
    ( '' ),
    ( '' ),
    'SwSTEP 2.0',
    'SolidWorks 2020',
    '' );
FILE_SCHEMA (( 'CONFIG_CONTROL_DESIGN' ));
ENDSEC;

DATA;
#1 = AXIS2_PLACEMENT_3D ( 'NONE', #92, #220, #17 ) ;
#2 = APPROVAL_ROLE ( '' ) ;
#3 = CARTESIAN_POINT ( 'NONE',  ( -1.614212418857619014, 1.555301434917138433E-15, -12.69999999999999929 ) ) ;
#4 = LINE ( 'NONE', #316, #154 ) ;
#5 = CARTESIAN_POINT ( 'NONE',  ( -1.250000000000000222, 0.000000000000000000, 5.000000000000000888 ) ) ;
#6 = VERTEX_POINT ( 'NONE', #25 ) ;
#7 = CIRCLE ( 'NONE', #45, 12.69999999999999929 ) ;
#8 = DIRECTION ( 'NONE',  ( 0.000000000000000000, 0.000000000000000000, 1.000000000000000000 ) ) ;
#9 = DIRECTION ( 'NONE',  ( -1.000000000000000000, 0.000000000000000000, -0.000000000000000000 ) ) ;
#10 =( NAMED_UNIT ( * ) PLANE_ANGLE_UNIT ( ) SI_UNIT ( $, .RADIAN. ) );
#11 = AXIS2_PLACEMENT_3D ( 'NONE', #255, #26, #84 ) ;
#12 =( LENGTH_UNIT ( ) NAMED_UNIT ( * ) SI_UNIT ( .MILLI., .METRE. ) );
#13 = ADVANCED_FACE ( 'NONE', ( #208 ), #81, .T. ) ;
#14 = CARTESIAN_POINT ( 'NONE',  ( -1.250000000000000222, 0.000000000000000000, 0.000000000000000000 ) ) ;
#15 = CC_DESIGN_DATE_AND_TIME_ASSIGNMENT ( #97, #202, ( #198 ) ) ;
#16 = ADVANCED_FACE ( 'NONE', ( #141 ), #305, .F. ) ;
#17 = DIRECTION ( 'NONE',  ( 1.000000000000000000, 0.000000000000000000, 0.000000000000000000 ) ) ;
#18 = AXIS2_PLACEMENT_3D ( 'NONE', #100, #210, #140 ) ;
#19 = CARTESIAN_POINT ( 'NONE',  ( -1.614212418857619014, 0.000000000000000000, 5.000000000000000888 ) ) ;
#20 = VECTOR ( 'NONE', #175, 1000.000000000000000 ) ;
#21 = VERTEX_POINT ( 'NONE', #138 ) ;
#22 = APPROVAL_STATUS ( 'not_yet_approved' ) ;
#23 = LINE ( 'NONE', #232, #286 ) ;
#24 = ORIENTED_EDGE ( 'NONE', *, *, #256, .F. ) ;
#25 = CARTESIAN_POINT ( 'NONE',  ( 3.000000000000000000, 1.555301434917138433E-15, -12.69999999999999929 ) ) ;
#26 = DIRECTION ( 'NONE',  ( -1.000000000000000000, -0.000000000000000000, -0.000000000000000000 ) ) ;
#27 = DIRECTION ( 'NONE',  ( -1.000000000000000000, -0.000000000000000000, -0.000000000000000000 ) ) ;
#28 = ORIENTED_EDGE ( 'NONE', *, *, #211, .T. ) ;
#29 = FACE_OUTER_BOUND ( 'NONE', #80, .T. ) ;
#30 = CIRCLE ( 'NONE', #221, 12.69999999999999929 ) ;
#31 = DIRECTION ( 'NONE',  ( 0.000000000000000000, 0.000000000000000000, 1.000000000000000000 ) ) ;
#32 = DATE_TIME_ROLE ( 'classification_date' ) ;
#33 = CARTESIAN_POINT ( 'NONE',  ( -3.000000000000000000, 0.000000000000000000, 0.000000000000000000 ) ) ;
#34 = APPLICATION_CONTEXT ( 'configuration controlled 3d designs of mechanical parts and assemblies' ) ;
#35 = DIRECTION ( 'NONE',  ( -1.000000000000000000, -0.000000000000000000, -0.000000000000000000 ) ) ;
#36 = AXIS2_PLACEMENT_3D ( 'NONE', #82, #252, #185 ) ;
#37 = LOCAL_TIME ( 9, 21, 54.00000000000000000, #46 ) ;
#38 = DIRECTION ( 'NONE',  ( 0.000000000000000000, 0.000000000000000000, -1.000000000000000000 ) ) ;
#39 = CC_DESIGN_PERSON_AND_ORGANIZATION_ASSIGNMENT ( #176, #44, ( #192 ) ) ;
#40 = DIRECTION ( 'NONE',  ( 0.000000000000000000, 0.000000000000000000, 1.000000000000000000 ) ) ;
#41 = DIRECTION ( 'NONE',  ( 0.000000000000000000, 0.000000000000000000, 1.000000000000000000 ) ) ;
#42 = AXIS2_PLACEMENT_3D ( 'NONE', #33, #288, #60 ) ;
#43 = ADVANCED_FACE ( 'NONE', ( #312, #156 ), #234, .F. ) ;
#44 = PERSON_AND_ORGANIZATION_ROLE ( 'design_owner' ) ;
#45 = AXIS2_PLACEMENT_3D ( 'NONE', #266, #191, #90 ) ;
#46 = COORDINATED_UNIVERSAL_TIME_OFFSET ( 8, 0, .AHEAD. ) ;
#47 = DIRECTION ( 'NONE',  ( 0.000000000000000000, 0.000000000000000000, -1.000000000000000000 ) ) ;
#48 = EDGE_LOOP ( 'NONE', ( #283, #129, #334, #206 ) ) ;
#49 = ORIENTED_EDGE ( 'NONE', *, *, #119, .T. ) ;
#50 = CC_DESIGN_PERSON_AND_ORGANIZATION_ASSIGNMENT ( #213, #205, ( #91 ) ) ;
#51 = EDGE_CURVE ( 'NONE', #328, #329, #136, .T. ) ;
#52 = LOCAL_TIME ( 9, 21, 54.00000000000000000, #109 ) ;
#53 = DIRECTION ( 'NONE',  ( 0.000000000000000000, 0.000000000000000000, 1.000000000000000000 ) ) ;
#54 = DIRECTION ( 'NONE',  ( 0.000000000000000000, 0.000000000000000000, 1.000000000000000000 ) ) ;
#55 = CARTESIAN_POINT ( 'NONE',  ( 3.000000000000000000, 0.000000000000000000, 12.69999999999999929 ) ) ;
#56 = DIRECTION ( 'NONE',  ( -1.000000000000000000, -0.000000000000000000, -0.000000000000000000 ) ) ;
#57 = AXIS2_PLACEMENT_3D ( 'NONE', #244, #241, #170 ) ;
#58 = DIRECTION ( 'NONE',  ( -0.000000000000000000, 0.000000000000000000, 1.000000000000000000 ) ) ;
#59 = DIRECTION ( 'NONE',  ( 1.000000000000000000, 0.000000000000000000, 0.000000000000000000 ) ) ;
#60 = DIRECTION ( 'NONE',  ( 0.000000000000000000, 0.000000000000000000, 1.000000000000000000 ) ) ;
#61 = CIRCLE ( 'NONE', #11, 5.000000000000000000 ) ;
#62 = AXIS2_PLACEMENT_3D ( 'NONE', #94, #99, #41 ) ;
#63 = EDGE_CURVE ( 'NONE', #159, #328, #23, .T. ) ;
#64 = CARTESIAN_POINT ( 'NONE',  ( -1.614212418857619014, 6.123233995736767268E-16, -5.000000000000000888 ) ) ;
#65 = CARTESIAN_POINT ( 'NONE',  ( 1.250000000000000444, 6.123233995736766282E-16, -5.000000000000000000 ) ) ;
#66 = EDGE_LOOP ( 'NONE', ( #108, #308, #73, #49 ) ) ;
#67 = PRODUCT_RELATED_PRODUCT_CATEGORY ( 'detail', '', ( #192 ) ) ;
#68 = ORIENTED_EDGE ( 'NONE', *, *, #253, .F. ) ;
#69 = DIRECTION ( 'NONE',  ( -1.000000000000000000, -0.000000000000000000, -0.000000000000000000 ) ) ;
#70 = ORIENTED_EDGE ( 'NONE', *, *, #162, .F. ) ;
#71 = PERSON_AND_ORGANIZATION ( #83, #247 ) ;
#72 = AXIS2_PLACEMENT_3D ( 'NONE', #135, #158, #332 ) ;
#73 = ORIENTED_EDGE ( 'NONE', *, *, #324, .T. ) ;
#74 = PLANE ( 'NONE',  #166 ) ;
#75 = CALENDAR_DATE ( 2020, 23, 12 ) ;
#76 = EDGE_CURVE ( 'NONE', #298, #21, #188, .T. ) ;
#77 = ORIENTED_EDGE ( 'NONE', *, *, #257, .F. ) ;
#78 = CC_DESIGN_PERSON_AND_ORGANIZATION_ASSIGNMENT ( #225, #152, ( #198 ) ) ;
#79 = ADVANCED_FACE ( 'NONE', ( #333 ), #74, .F. ) ;
#80 = EDGE_LOOP ( 'NONE', ( #70, #184, #289, #280 ) ) ;
#81 = CYLINDRICAL_SURFACE ( 'NONE', #271, 12.69999999999999929 ) ;
#82 = CARTESIAN_POINT ( 'NONE',  ( -3.000000000000000000, 0.000000000000000000, 0.000000000000000000 ) ) ;
#83 = PERSON ( 'UNSPECIFIED', 'UNSPECIFIED', 'UNSPECIFIED', ('UNSPECIFIED'), ('UNSPECIFIED'), ('UNSPECIFIED') ) ;
#84 = DIRECTION ( 'NONE',  ( 0.000000000000000000, 0.000000000000000000, 1.000000000000000000 ) ) ;
#85 = SHAPE_DEFINITION_REPRESENTATION ( #297, #311 ) ;
#86 = CARTESIAN_POINT ( 'NONE',  ( -3.000000000000000000, 0.000000000000000000, 5.000000000000000000 ) ) ;
#87 = AXIS2_PLACEMENT_3D ( 'NONE', #242, #264, #172 ) ;
#88 = PLANE ( 'NONE',  #215 ) ;
#89 = CARTESIAN_POINT ( 'NONE',  ( -3.000000000000000000, 6.123233995736766282E-16, -5.000000000000000000 ) ) ;
#90 = DIRECTION ( 'NONE',  ( 0.000000000000000000, 0.000000000000000000, 1.000000000000000000 ) ) ;
#91 = PRODUCT_DEFINITION_FORMATION_WITH_SPECIFIED_SOURCE ( 'ANY', '', #192, .NOT_KNOWN. ) ;
#92 = CARTESIAN_POINT ( 'NONE',  ( 0.000000000000000000, 0.000000000000000000, 0.000000000000000000 ) ) ;
#93 = VERTEX_POINT ( 'NONE', #259 ) ;
#94 = CARTESIAN_POINT ( 'NONE',  ( -1.614212418857619014, 0.000000000000000000, 0.000000000000000000 ) ) ;
#95 =( NAMED_UNIT ( * ) SI_UNIT ( $, .STERADIAN. ) SOLID_ANGLE_UNIT ( ) );
#96 = CIRCLE ( 'NONE', #106, 5.000000000000000000 ) ;
#97 = DATE_AND_TIME ( #130, #303 ) ;
#98 = ORIENTED_EDGE ( 'NONE', *, *, #256, .T. ) ;
#99 = DIRECTION ( 'NONE',  ( -1.000000000000000000, -0.000000000000000000, -0.000000000000000000 ) ) ;
#100 = CARTESIAN_POINT ( 'NONE',  ( -1.614212418857619014, 0.000000000000000000, 0.000000000000000000 ) ) ;
#101 = PERSON_AND_ORGANIZATION ( #83, #247 ) ;
#102 = ORIENTED_EDGE ( 'NONE', *, *, #162, .T. ) ;
#103 = EDGE_CURVE ( 'NONE', #300, #179, #61, .T. ) ;
#104 = EDGE_LOOP ( 'NONE', ( #98, #113, #203, #230 ) ) ;
#105 = EDGE_LOOP ( 'NONE', ( #68, #157 ) ) ;
#106 = AXIS2_PLACEMENT_3D ( 'NONE', #147, #187, #292 ) ;
#107 = CC_DESIGN_APPROVAL ( #117, ( #91 ) ) ;
#108 = ORIENTED_EDGE ( 'NONE', *, *, #315, .F. ) ;
#109 = COORDINATED_UNIVERSAL_TIME_OFFSET ( 8, 0, .AHEAD. ) ;
#110 = DIRECTION ( 'NONE',  ( -1.000000000000000000, -0.000000000000000000, -0.000000000000000000 ) ) ;
#111 = APPROVAL_DATE_TIME ( #134, #117 ) ;
#112 = CARTESIAN_POINT ( 'NONE',  ( 1.250000000000000222, 5.000000000000000000, 0.000000000000000000 ) ) ;
#113 = ORIENTED_EDGE ( 'NONE', *, *, #233, .T. ) ;
#114 = LINE ( 'NONE', #313, #335 ) ;
#115 = AXIS2_PLACEMENT_3D ( 'NONE', #144, #56, #212 ) ;
#116 = AXIS2_PLACEMENT_3D ( 'NONE', #14, #325, #150 ) ;
#117 = APPROVAL ( #22, 'UNSPECIFIED' ) ;
#118 = ORIENTED_EDGE ( 'NONE', *, *, #197, .F. ) ;
#119 = EDGE_CURVE ( 'NONE', #179, #300, #96, .T. ) ;
#120 = FACE_OUTER_BOUND ( 'NONE', #66, .T. ) ;
#121 = CC_DESIGN_DATE_AND_TIME_ASSIGNMENT ( #229, #32, ( #226 ) ) ;
#122 = DIRECTION ( 'NONE',  ( 0.000000000000000000, 0.000000000000000000, 1.000000000000000000 ) ) ;
#123 = EDGE_CURVE ( 'NONE', #194, #196, #160, .T. ) ;
#124 = CLOSED_SHELL ( 'NONE', ( #13, #16, #180, #146, #290, #318, #235, #199, #43, #79 ) ) ;
#125 = APPROVAL_PERSON_ORGANIZATION ( #248, #310, #126 ) ;
#126 = APPROVAL_ROLE ( '' ) ;
#127 = ORIENTED_EDGE ( 'NONE', *, *, #76, .T. ) ;
#128 = APPROVAL_STATUS ( 'not_yet_approved' ) ;
#129 = ORIENTED_EDGE ( 'NONE', *, *, #257, .T. ) ;
#130 = CALENDAR_DATE ( 2020, 23, 12 ) ;
#131 = ORIENTED_EDGE ( 'NONE', *, *, #103, .F. ) ;
#132 = CC_DESIGN_PERSON_AND_ORGANIZATION_ASSIGNMENT ( #71, #304, ( #91 ) ) ;
#133 = ORIENTED_EDGE ( 'NONE', *, *, #326, .T. ) ;
#134 = DATE_AND_TIME ( #169, #37 ) ;
#135 = CARTESIAN_POINT ( 'NONE',  ( 3.000000000000000000, 12.69999999999999929, 0.000000000000000000 ) ) ;
#136 = CIRCLE ( 'NONE', #36, 12.69999999999999929 ) ;
#137 = CC_DESIGN_APPROVAL ( #139, ( #226 ) ) ;
#138 = CARTESIAN_POINT ( 'NONE',  ( 3.000000000000000000, 6.123233995736768255E-16, -5.000000000000001776 ) ) ;
#139 = APPROVAL ( #183, 'UNSPECIFIED' ) ;
#140 = DIRECTION ( 'NONE',  ( 0.000000000000000000, 0.000000000000000000, 1.000000000000000000 ) ) ;
#141 = FACE_OUTER_BOUND ( 'NONE', #104, .T. ) ;
#142 = VECTOR ( 'NONE', #110, 1000.000000000000000 ) ;
#143 = DIRECTION ( 'NONE',  ( 0.000000000000000000, 0.000000000000000000, -1.000000000000000000 ) ) ;
#144 = CARTESIAN_POINT ( 'NONE',  ( -3.000000000000000000, 0.000000000000000000, 0.000000000000000000 ) ) ;
#145 = FACE_OUTER_BOUND ( 'NONE', #258, .T. ) ;
#146 = ADVANCED_FACE ( 'NONE', ( #145 ), #285, .F. ) ;
#147 = CARTESIAN_POINT ( 'NONE',  ( 1.250000000000000444, 0.000000000000000000, 0.000000000000000000 ) ) ;
#148 = CYLINDRICAL_SURFACE ( 'NONE', #331, 5.000000000000000888 ) ;
#149 = CARTESIAN_POINT ( 'NONE',  ( -3.000000000000000000, 1.555301434917138433E-15, -12.69999999999999929 ) ) ;
#150 = DIRECTION ( 'NONE',  ( 0.000000000000000000, 0.000000000000000000, -1.000000000000000000 ) ) ;
#151 = APPLICATION_PROTOCOL_DEFINITION ( 'international standard', 'config_control_design', 1994, #245 ) ;
#152 = PERSON_AND_ORGANIZATION_ROLE ( 'creator' ) ;
#153 = COORDINATED_UNIVERSAL_TIME_OFFSET ( 8, 0, .AHEAD. ) ;
#154 = VECTOR ( 'NONE', #322, 1000.000000000000000 ) ;
#155 = PERSON_AND_ORGANIZATION ( #83, #247 ) ;
#156 = FACE_BOUND ( 'NONE', #299, .T. ) ;
#157 = ORIENTED_EDGE ( 'NONE', *, *, #267, .F. ) ;
#158 = DIRECTION ( 'NONE',  ( -1.000000000000000000, 0.000000000000000000, -0.000000000000000000 ) ) ;
#159 = VERTEX_POINT ( 'NONE', #55 ) ;
#160 = CIRCLE ( 'NONE', #42, 5.000000000000000000 ) ;
#161 = ORIENTED_EDGE ( 'NONE', *, *, #123, .F. ) ;
#162 = EDGE_CURVE ( 'NONE', #21, #298, #239, .T. ) ;
#163 = EDGE_LOOP ( 'NONE', ( #118, #161 ) ) ;
#164 = DIRECTION ( 'NONE',  ( -1.000000000000000000, -0.000000000000000000, -0.000000000000000000 ) ) ;
#165 = CC_DESIGN_PERSON_AND_ORGANIZATION_ASSIGNMENT ( #155, #276, ( #226 ) ) ;
#166 = AXIS2_PLACEMENT_3D ( 'NONE', #182, #279, #47 ) ;
#167 = CIRCLE ( 'NONE', #116, 5.000000000000000888 ) ;
#168 = CYLINDRICAL_SURFACE ( 'NONE', #296, 12.69999999999999929 ) ;
#169 = CALENDAR_DATE ( 2020, 23, 12 ) ;
#170 = DIRECTION ( 'NONE',  ( 0.000000000000000000, 0.000000000000000000, 1.000000000000000000 ) ) ;
#171 = LINE ( 'NONE', #3, #142 ) ;
#172 = DIRECTION ( 'NONE',  ( 0.000000000000000000, 0.000000000000000000, 1.000000000000000000 ) ) ;
#173 = VECTOR ( 'NONE', #227, 1000.000000000000000 ) ;
#174 = CARTESIAN_POINT ( 'NONE',  ( -3.000000000000000000, 0.000000000000000000, 0.000000000000000000 ) ) ;
#175 = DIRECTION ( 'NONE',  ( -1.000000000000000000, -0.000000000000000000, -0.000000000000000000 ) ) ;
#176 = PERSON_AND_ORGANIZATION ( #83, #247 ) ;
#177 = EDGE_LOOP ( 'NONE', ( #327, #278, #28, #207 ) ) ;
#178 = DATE_AND_TIME ( #200, #209 ) ;
#179 = VERTEX_POINT ( 'NONE', #216 ) ;
#180 = ADVANCED_FACE ( 'NONE', ( #29 ), #263, .F. ) ;
#181 = AXIS2_PLACEMENT_3D ( 'NONE', #281, #302, #53 ) ;
#182 = CARTESIAN_POINT ( 'NONE',  ( -1.250000000000000222, 5.000000000000000000, 0.000000000000000000 ) ) ;
#183 = APPROVAL_STATUS ( 'not_yet_approved' ) ;
#184 = ORIENTED_EDGE ( 'NONE', *, *, #315, .T. ) ;
#185 = DIRECTION ( 'NONE',  ( 0.000000000000000000, 0.000000000000000000, 1.000000000000000000 ) ) ;
#186 = DATE_AND_TIME ( #231, #52 ) ;
#187 = DIRECTION ( 'NONE',  ( -1.000000000000000000, -0.000000000000000000, -0.000000000000000000 ) ) ;
#188 = CIRCLE ( 'NONE', #181, 5.000000000000001776 ) ;
#189 = CIRCLE ( 'NONE', #272, 12.69999999999999929 ) ;
#190 = FACE_OUTER_BOUND ( 'NONE', #224, .T. ) ;
#191 = DIRECTION ( 'NONE',  ( -1.000000000000000000, -0.000000000000000000, -0.000000000000000000 ) ) ;
#192 = PRODUCT ( 'Q-QZWP-R4-10-405-M', 'Q-QZWP-R4-10-405-M', '', ( #295 ) ) ;
#193 = CARTESIAN_POINT ( 'NONE',  ( -1.614212418857619014, 0.000000000000000000, 0.000000000000000000 ) ) ;
#194 = VERTEX_POINT ( 'NONE', #89 ) ;
#195 = FACE_OUTER_BOUND ( 'NONE', #330, .T. ) ;
#196 = VERTEX_POINT ( 'NONE', #86 ) ;
#197 = EDGE_CURVE ( 'NONE', #196, #194, #317, .T. ) ;
#198 = PRODUCT_DEFINITION ( 'UNKNOWN', '', #91, #320 ) ;
#199 = ADVANCED_FACE ( 'NONE', ( #195 ), #168, .T. ) ;
#200 = CALENDAR_DATE ( 2020, 23, 12 ) ;
#201 = CC_DESIGN_SECURITY_CLASSIFICATION ( #226, ( #91 ) ) ;
#202 = DATE_TIME_ROLE ( 'creation_date' ) ;
#203 = ORIENTED_EDGE ( 'NONE', *, *, #123, .T. ) ;
#204 = DIRECTION ( 'NONE',  ( -1.000000000000000000, -0.000000000000000000, -0.000000000000000000 ) ) ;
#205 = PERSON_AND_ORGANIZATION_ROLE ( 'creator' ) ;
#206 = ORIENTED_EDGE ( 'NONE', *, *, #63, .F. ) ;
#207 = ORIENTED_EDGE ( 'NONE', *, *, #197, .T. ) ;
#208 = FACE_OUTER_BOUND ( 'NONE', #48, .T. ) ;
#209 = LOCAL_TIME ( 9, 21, 54.00000000000000000, #223 ) ;
#210 = DIRECTION ( 'NONE',  ( -1.000000000000000000, -0.000000000000000000, -0.000000000000000000 ) ) ;
#211 = EDGE_CURVE ( 'NONE', #228, #196, #4, .T. ) ;
#212 = DIRECTION ( 'NONE',  ( 0.000000000000000000, 0.000000000000000000, 1.000000000000000000 ) ) ;
#213 = PERSON_AND_ORGANIZATION ( #83, #247 ) ;
#214 = FACE_BOUND ( 'NONE', #163, .T. ) ;
#215 = AXIS2_PLACEMENT_3D ( 'NONE', #261, #321, #143 ) ;
#216 = CARTESIAN_POINT ( 'NONE',  ( 1.250000000000000444, 0.000000000000000000, 5.000000000000000000 ) ) ;
#217 = CARTESIAN_POINT ( 'NONE',  ( -1.614212418857619014, 0.000000000000000000, 0.000000000000000000 ) ) ;
#218 = ORIENTED_EDGE ( 'NONE', *, *, #51, .T. ) ;
#219 = CARTESIAN_POINT ( 'NONE',  ( 3.000000000000000000, 0.000000000000000000, 5.000000000000001776 ) ) ;
#220 = DIRECTION ( 'NONE',  ( 0.000000000000000000, 0.000000000000000000, 1.000000000000000000 ) ) ;
#221 = AXIS2_PLACEMENT_3D ( 'NONE', #265, #35, #8 ) ;
#222 = ORIENTED_EDGE ( 'NONE', *, *, #301, .F. ) ;
#223 = COORDINATED_UNIVERSAL_TIME_OFFSET ( 8, 0, .AHEAD. ) ;
#224 = EDGE_LOOP ( 'NONE', ( #218, #133 ) ) ;
#225 = PERSON_AND_ORGANIZATION ( #83, #247 ) ;
#226 = SECURITY_CLASSIFICATION ( '', '', #284 ) ;
#227 = DIRECTION ( 'NONE',  ( -1.000000000000000000, -0.000000000000000000, -0.000000000000000000 ) ) ;
#228 = VERTEX_POINT ( 'NONE', #5 ) ;
#229 = DATE_AND_TIME ( #75, #287 ) ;
#230 = ORIENTED_EDGE ( 'NONE', *, *, #211, .F. ) ;
#231 = CALENDAR_DATE ( 2020, 23, 12 ) ;
#232 = CARTESIAN_POINT ( 'NONE',  ( -1.614212418857619014, 0.000000000000000000, 12.69999999999999929 ) ) ;
#233 = EDGE_CURVE ( 'NONE', #93, #194, #114, .T. ) ;
#234 = PLANE ( 'NONE',  #72 ) ;
#235 = ADVANCED_FACE ( 'NONE', ( #214, #190 ), #88, .F. ) ;
#236 = ORIENTED_EDGE ( 'NONE', *, *, #119, .F. ) ;
#237 = UNCERTAINTY_MEASURE_WITH_UNIT (LENGTH_MEASURE( 1.000000000000000082E-05 ), #12, 'distance_accuracy_value', 'NONE');
#238 = CARTESIAN_POINT ( 'NONE',  ( -1.614212418857619014, 0.000000000000000000, 0.000000000000000000 ) ) ;
#239 = CIRCLE ( 'NONE', #57, 5.000000000000001776 ) ;
#240 = APPROVAL_ROLE ( '' ) ;
#241 = DIRECTION ( 'NONE',  ( -1.000000000000000000, -0.000000000000000000, -0.000000000000000000 ) ) ;
#242 = CARTESIAN_POINT ( 'NONE',  ( -1.614212418857619014, 0.000000000000000000, 0.000000000000000000 ) ) ;
#243 = CIRCLE ( 'NONE', #277, 5.000000000000000888 ) ;
#244 = CARTESIAN_POINT ( 'NONE',  ( 3.000000000000000000, 0.000000000000000000, 0.000000000000000000 ) ) ;
#245 = APPLICATION_CONTEXT ( 'configuration controlled 3d designs of mechanical parts and assemblies' ) ;
#246 = DIRECTION ( 'NONE',  ( -1.000000000000000000, -0.000000000000000000, -0.000000000000000000 ) ) ;
#247 = ORGANIZATION ( 'UNSPECIFIED', 'UNSPECIFIED', '' ) ;
#248 = PERSON_AND_ORGANIZATION ( #83, #247 ) ;
#249 = FACE_OUTER_BOUND ( 'NONE', #177, .T. ) ;
#250 = CC_DESIGN_APPROVAL ( #310, ( #198 ) ) ;
#251 = COORDINATED_UNIVERSAL_TIME_OFFSET ( 8, 0, .AHEAD. ) ;
#252 = DIRECTION ( 'NONE',  ( -1.000000000000000000, -0.000000000000000000, -0.000000000000000000 ) ) ;
#253 = EDGE_CURVE ( 'NONE', #159, #6, #7, .T. ) ;
#254 = APPROVAL_DATE_TIME ( #186, #139 ) ;
#255 = CARTESIAN_POINT ( 'NONE',  ( 1.250000000000000444, 0.000000000000000000, 0.000000000000000000 ) ) ;
#256 = EDGE_CURVE ( 'NONE', #228, #93, #243, .T. ) ;
#257 = EDGE_CURVE ( 'NONE', #6, #329, #171, .T. ) ;
#258 = EDGE_LOOP ( 'NONE', ( #236, #131 ) ) ;
#259 = CARTESIAN_POINT ( 'NONE',  ( -1.250000000000000222, 6.123233995736767268E-16, -5.000000000000000888 ) ) ;
#260 = EDGE_LOOP ( 'NONE', ( #24, #222 ) ) ;
#261 = CARTESIAN_POINT ( 'NONE',  ( -3.000000000000000000, 5.000000000000000000, 0.000000000000000000 ) ) ;
#262 =( GEOMETRIC_REPRESENTATION_CONTEXT ( 3 ) GLOBAL_UNCERTAINTY_ASSIGNED_CONTEXT ( ( #237 ) ) GLOBAL_UNIT_ASSIGNED_CONTEXT ( ( #12, #10, #95 ) ) REPRESENTATION_CONTEXT ( 'NONE', 'WORKASPACE' ) );
#263 = CYLINDRICAL_SURFACE ( 'NONE', #87, 5.000000000000000888 ) ;
#264 = DIRECTION ( 'NONE',  ( -1.000000000000000000, -0.000000000000000000, -0.000000000000000000 ) ) ;
#265 = CARTESIAN_POINT ( 'NONE',  ( 3.000000000000000000, 0.000000000000000000, 0.000000000000000000 ) ) ;
#266 = CARTESIAN_POINT ( 'NONE',  ( 3.000000000000000000, 0.000000000000000000, 0.000000000000000000 ) ) ;
#267 = EDGE_CURVE ( 'NONE', #6, #159, #30, .T. ) ;
#268 = LINE ( 'NONE', #19, #20 ) ;
#269 = CARTESIAN_POINT ( 'NONE',  ( -3.000000000000000000, 0.000000000000000000, 12.69999999999999929 ) ) ;
#270 = ORIENTED_EDGE ( 'NONE', *, *, #267, .T. ) ;
#271 = AXIS2_PLACEMENT_3D ( 'NONE', #238, #27, #54 ) ;
#272 = AXIS2_PLACEMENT_3D ( 'NONE', #174, #69, #40 ) ;
#273 = APPROVAL_DATE_TIME ( #178, #310 ) ;
#274 = APPLICATION_PROTOCOL_DEFINITION ( 'international standard', 'config_control_design', 1994, #34 ) ;
#275 = ORIENTED_EDGE ( 'NONE', *, *, #326, .F. ) ;
#276 = PERSON_AND_ORGANIZATION_ROLE ( 'classification_officer' ) ;
#277 = AXIS2_PLACEMENT_3D ( 'NONE', #291, #59, #38 ) ;
#278 = ORIENTED_EDGE ( 'NONE', *, *, #301, .T. ) ;
#279 = DIRECTION ( 'NONE',  ( 1.000000000000000000, 0.000000000000000000, 0.000000000000000000 ) ) ;
#280 = ORIENTED_EDGE ( 'NONE', *, *, #324, .F. ) ;
#281 = CARTESIAN_POINT ( 'NONE',  ( 3.000000000000000000, 0.000000000000000000, 0.000000000000000000 ) ) ;
#282 = APPROVAL_PERSON_ORGANIZATION ( #314, #139, #2 ) ;
#283 = ORIENTED_EDGE ( 'NONE', *, *, #253, .T. ) ;
#284 = SECURITY_CLASSIFICATION_LEVEL ( 'unclassified' ) ;
#285 = PLANE ( 'NONE',  #293 ) ;
#286 = VECTOR ( 'NONE', #204, 1000.000000000000000 ) ;
#287 = LOCAL_TIME ( 9, 21, 54.00000000000000000, #251 ) ;
#288 = DIRECTION ( 'NONE',  ( -1.000000000000000000, -0.000000000000000000, -0.000000000000000000 ) ) ;
#289 = ORIENTED_EDGE ( 'NONE', *, *, #103, .T. ) ;
#290 = ADVANCED_FACE ( 'NONE', ( #120 ), #148, .F. ) ;
#291 = CARTESIAN_POINT ( 'NONE',  ( -1.250000000000000222, 0.000000000000000000, 0.000000000000000000 ) ) ;
#292 = DIRECTION ( 'NONE',  ( 0.000000000000000000, 0.000000000000000000, 1.000000000000000000 ) ) ;
#293 = AXIS2_PLACEMENT_3D ( 'NONE', #112, #9, #58 ) ;
#294 = LINE ( 'NONE', #64, #173 ) ;
#295 = MECHANICAL_CONTEXT ( 'NONE', #34, 'mechanical' ) ;
#296 = AXIS2_PLACEMENT_3D ( 'NONE', #193, #164, #31 ) ;
#297 = PRODUCT_DEFINITION_SHAPE ( 'NONE', 'NONE',  #198 ) ;
#298 = VERTEX_POINT ( 'NONE', #219 ) ;
#299 = EDGE_LOOP ( 'NONE', ( #127, #102 ) ) ;
#300 = VERTEX_POINT ( 'NONE', #65 ) ;
#301 = EDGE_CURVE ( 'NONE', #93, #228, #167, .T. ) ;
#302 = DIRECTION ( 'NONE',  ( -1.000000000000000000, -0.000000000000000000, -0.000000000000000000 ) ) ;
#303 = LOCAL_TIME ( 9, 21, 54.00000000000000000, #153 ) ;
#304 = PERSON_AND_ORGANIZATION_ROLE ( 'design_supplier' ) ;
#305 = CYLINDRICAL_SURFACE ( 'NONE', #18, 5.000000000000000888 ) ;
#306 = ORIENTED_EDGE ( 'NONE', *, *, #63, .T. ) ;
#307 = MANIFOLD_SOLID_BREP ( 'Ðý×', #124 ) ;
#308 = ORIENTED_EDGE ( 'NONE', *, *, #76, .F. ) ;
#309 = APPROVAL_PERSON_ORGANIZATION ( #101, #117, #240 ) ;
#310 = APPROVAL ( #128, 'UNSPECIFIED' ) ;
#311 = ADVANCED_BREP_SHAPE_REPRESENTATION ( 'Q-QZWP-R4-10-405-M', ( #307, #1 ), #262 ) ;
#312 = FACE_OUTER_BOUND ( 'NONE', #105, .T. ) ;
#313 = CARTESIAN_POINT ( 'NONE',  ( -1.614212418857619014, 6.123233995736767268E-16, -5.000000000000000888 ) ) ;
#314 = PERSON_AND_ORGANIZATION ( #83, #247 ) ;
#315 = EDGE_CURVE ( 'NONE', #21, #300, #294, .T. ) ;
#316 = CARTESIAN_POINT ( 'NONE',  ( -1.614212418857619014, 0.000000000000000000, 5.000000000000000888 ) ) ;
#317 = CIRCLE ( 'NONE', #115, 5.000000000000000000 ) ;
#318 = ADVANCED_FACE ( 'NONE', ( #249 ), #323, .F. ) ;
#319 = DIRECTION ( 'NONE',  ( -1.000000000000000000, -0.000000000000000000, -0.000000000000000000 ) ) ;
#320 = DESIGN_CONTEXT ( 'detailed design', #245, 'design' ) ;
#321 = DIRECTION ( 'NONE',  ( 1.000000000000000000, 0.000000000000000000, 0.000000000000000000 ) ) ;
#322 = DIRECTION ( 'NONE',  ( -1.000000000000000000, -0.000000000000000000, -0.000000000000000000 ) ) ;
#323 = CYLINDRICAL_SURFACE ( 'NONE', #62, 5.000000000000000888 ) ;
#324 = EDGE_CURVE ( 'NONE', #298, #179, #268, .T. ) ;
#325 = DIRECTION ( 'NONE',  ( 1.000000000000000000, 0.000000000000000000, 0.000000000000000000 ) ) ;
#326 = EDGE_CURVE ( 'NONE', #329, #328, #189, .T. ) ;
#327 = ORIENTED_EDGE ( 'NONE', *, *, #233, .F. ) ;
#328 = VERTEX_POINT ( 'NONE', #269 ) ;
#329 = VERTEX_POINT ( 'NONE', #149 ) ;
#330 = EDGE_LOOP ( 'NONE', ( #77, #270, #306, #275 ) ) ;
#331 = AXIS2_PLACEMENT_3D ( 'NONE', #217, #246, #122 ) ;
#332 = DIRECTION ( 'NONE',  ( -0.000000000000000000, 0.000000000000000000, 1.000000000000000000 ) ) ;
#333 = FACE_OUTER_BOUND ( 'NONE', #260, .T. ) ;
#334 = ORIENTED_EDGE ( 'NONE', *, *, #51, .F. ) ;
#335 = VECTOR ( 'NONE', #319, 1000.000000000000000 ) ;
ENDSEC;
END-ISO-10303-21;
